999
Converted by fM gConvert
  0
SECTION
  2
HEADER
  9
$ACADVER
  1
AC1014
  9
$HANDSEED
  5
FFFF
  9
$MEASUREMENT
 70
     1
  0
ENDSEC
  0
SECTION
  2
TABLES
  0
TABLE
  2
VPORT
  5
8
330
0
100
AcDbSymbolTable
 70
     4
  0
VPORT
  5
2E
330
8
100
AcDbSymbolTableRecord
100
AcDbViewportTableRecord
  2
*ACTIVE
 70
     0
 10
0.0
 20
0.0
 11
1.0
 21
1.0
 12
210.0
 22
148.5
 13
0.0
 23
0.0
 14
10.0
 24
10.0
 15
10.0
 25
10.0
 16
0.0
 26
0.0
 36
1.0
 17
0.0
 27
0.0
 37
0.0
 40
341.0
 41
1.24
 42
50.0
 43
0.0
 44
0.0
 50
0.0
 51
0.0
 71
     0
 72
   100
 73
     1
 74
     3
 75
     0
 76
     0
 77
     0
 78
     0
  0
ENDTAB
  0
TABLE
  2
LTYPE
  5
5
330
0
100
AcDbSymbolTable
 70
     1
  0
LTYPE
  5
14
330
5
100
AcDbSymbolTableRecord
100
AcDbLinetypeTableRecord
  2
BYBLOCK
 70
     0
  3

 72
    65
 73
     0
 40
0.0
  0
LTYPE
  5
15
330
5
100
AcDbSymbolTableRecord
100
AcDbLinetypeTableRecord
  2
BYLAYER
 70
     0
  3

 72
    65
 73
     0
 40
0.0
  0
LTYPE
  5
16
330
5
100
AcDbSymbolTableRecord
100
AcDbLinetypeTableRecord
  2
CONTINUOUS
 70
     0
  3
Solid line
 72
    65
 73
     0
 40
0.0
  0
ENDTAB
  0
TABLE
  2
LAYER
  5
2
330
0
100
AcDbSymbolTable
 70
1
  0
LAYER
  5
10
330
2
100
AcDbSymbolTableRecord
100
AcDbLayerTableRecord
  2
0
 70
     0
 62
     7
  6
CONTINUOUS
  0
ENDTAB
  0
TABLE
  2
STYLE
  5
3
330
0
100
AcDbSymbolTable
 70
     1
  0
STYLE
  5
11
330
3
100
AcDbSymbolTableRecord
100
AcDbTextStyleTableRecord
  2
STANDARD
 70
     0
 40
0.0
 41
1.0
 50
0.0
 71
     0
 42
2.5
  3
txt
  4

  0
ENDTAB
  0
TABLE
  2
VIEW
  5
6
330
0
100
AcDbSymbolTable
 70
     0
  0
ENDTAB
  0
TABLE
  2
UCS
  5
7
330
0
100
AcDbSymbolTable
 70
     0
  0
ENDTAB
  0
TABLE
  2
APPID
  5
9
330
0
100
AcDbSymbolTable
 70
     2
  0
APPID
  5
12
330
9
100
AcDbSymbolTableRecord
100
AcDbRegAppTableRecord
  2
ACAD
 70
     0
  0
ENDTAB
  0
TABLE
  2
DIMSTYLE
  5
A
330
0
100
AcDbSymbolTable
 70
     1
  0
DIMSTYLE
105
27
330
A
100
AcDbSymbolTableRecord
100
AcDbDimStyleTableRecord
  2
ISO-25
 70
     0
  3

  4

  5

  6

  7

 40
1.0
 41
2.5
 42
0.625
 43
3.75
 44
1.25
 45
0.0
 46
0.0
 47
0.0
 48
0.0
140
2.5
141
2.5
142
0.0
143
0.03937007874016
144
1.0
145
0.0
146
1.0
147
0.625
 71
     0
 72
     0
 73
     0
 74
     0
 75
     0
 76
     0
 77
     1
 78
     8
170
     0
171
     3
172
     1
173
     0
174
     0
175
     0
176
     0
177
     0
178
     0
270
     2
271
     2
272
     2
273
     2
274
     3
340
11
275
     0
280
     0
281
     0
282
     0
283
     0
284
     8
285
     0
286
     0
287
     3
288
     0
  0
ENDTAB
  0
TABLE
  2
BLOCK_RECORD
  5
1
330
0
100
AcDbSymbolTable
 70
     1
  0
BLOCK_RECORD
  5
1F
330
1
100
AcDbSymbolTableRecord
100
AcDbBlockTableRecord
  2
*MODEL_SPACE
  0
BLOCK_RECORD
  5
1B
330
1
100
AcDbSymbolTableRecord
100
AcDbBlockTableRecord
  2
*PAPER_SPACE
  0
ENDTAB
  0
ENDSEC
  0
SECTION
  2
BLOCKS
  0
BLOCK
  5
20
330
1F
100
AcDbEntity
  8
0
100
AcDbBlockBegin
  2
*MODEL_SPACE
 70
     0
 10
0.0
 20
0.0
 30
0.0
  3
*MODEL_SPACE
  1

  0
ENDBLK
  5
21
330
1F
100
AcDbEntity
  8
0
100
AcDbBlockEnd
  0
BLOCK
  5
1C
330
1B
100
AcDbEntity
 67
     1
  8
0
100
AcDbBlockBegin
  2
*PAPER_SPACE
  1

  0
ENDBLK
  5
1D
330
1B
100
AcDbEntity
 67
     1
  8
0
100
AcDbBlockEnd
  0
ENDSEC
  0
SECTION
  2
ENTITIES
  0
SPLINE
  5
100
100
AcDbEntity
  8
0
 62
7
100
AcDbSpline
 70
8
 71
3
 72
8
 73
4
 74
0
 40
0
 40
0
 40
0
 40
0
 40
1
 40
1
 40
1
 40
1
 10
38.393229
 20
195.241391
 30
0.0
 10
38.393229
 20
215.740884
 30
0.0
 10
55.011320
 20
232.360104
 30
0.0
 10
75.512224
 20
232.360104
 30
0.0
  0
SPLINE
  5
101
100
AcDbEntity
  8
0
 62
7
100
AcDbSpline
 70
8
 71
3
 72
8
 73
4
 74
0
 40
0
 40
0
 40
0
 40
0
 40
1
 40
1
 40
1
 40
1
 10
75.512224
 20
232.360104
 30
0.0
 10
96.012847
 20
232.360104
 30
0.0
 10
112.630938
 20
215.740884
 30
0.0
 10
112.630938
 20
195.241391
 30
0.0
  0
SPLINE
  5
102
100
AcDbEntity
  8
0
 62
7
100
AcDbSpline
 70
8
 71
3
 72
8
 73
4
 74
0
 40
0
 40
0
 40
0
 40
0
 40
1
 40
1
 40
1
 40
1
 10
112.630938
 20
195.241391
 30
0.0
 10
112.630938
 20
174.740487
 30
0.0
 10
96.012847
 20
158.122396
 30
0.0
 10
75.512224
 20
158.122396
 30
0.0
  0
SPLINE
  5
103
100
AcDbEntity
  8
0
 62
7
100
AcDbSpline
 70
8
 71
3
 72
8
 73
4
 74
0
 40
0
 40
0
 40
0
 40
0
 40
1
 40
1
 40
1
 40
1
 10
75.512224
 20
158.122396
 30
0.0
 10
55.011320
 20
158.122396
 30
0.0
 10
38.393229
 20
174.740487
 30
0.0
 10
38.393229
 20
195.241391
 30
0.0
  0
SPLINE
  5
104
100
AcDbEntity
  8
0
 62
7
100
AcDbSpline
 70
8
 71
3
 72
8
 73
4
 74
0
 40
0
 40
0
 40
0
 40
0
 40
1
 40
1
 40
1
 40
1
 10
38.393229
 20
195.241391
 30
0.0
 10
38.393229
 20
215.740884
 30
0.0
 10
55.011320
 20
232.360104
 30
0.0
 10
75.512224
 20
232.360104
 30
0.0
  0
SPLINE
  5
105
100
AcDbEntity
  8
0
 62
7
100
AcDbSpline
 70
8
 71
3
 72
8
 73
4
 74
0
 40
0
 40
0
 40
0
 40
0
 40
1
 40
1
 40
1
 40
1
 10
75.512224
 20
232.360104
 30
0.0
 10
96.012847
 20
232.360104
 30
0.0
 10
112.630938
 20
215.740884
 30
0.0
 10
112.630938
 20
195.241391
 30
0.0
  0
SPLINE
  5
106
100
AcDbEntity
  8
0
 62
7
100
AcDbSpline
 70
8
 71
3
 72
8
 73
4
 74
0
 40
0
 40
0
 40
0
 40
0
 40
1
 40
1
 40
1
 40
1
 10
112.630938
 20
195.241391
 30
0.0
 10
112.630938
 20
174.740487
 30
0.0
 10
96.012847
 20
158.122396
 30
0.0
 10
75.512224
 20
158.122396
 30
0.0
  0
SPLINE
  5
107
100
AcDbEntity
  8
0
 62
7
100
AcDbSpline
 70
8
 71
3
 72
8
 73
4
 74
0
 40
0
 40
0
 40
0
 40
0
 40
1
 40
1
 40
1
 40
1
 10
75.512224
 20
158.122396
 30
0.0
 10
55.011320
 20
158.122396
 30
0.0
 10
38.393229
 20
174.740487
 30
0.0
 10
38.393229
 20
195.241391
 30
0.0
  0
SPLINE
  5
108
100
AcDbEntity
  8
0
 62
7
100
AcDbSpline
 70
8
 71
3
 72
8
 73
4
 74
0
 40
0
 40
0
 40
0
 40
0
 40
1
 40
1
 40
1
 40
1
 10
40.389669
 20
195.241391
 30
0.0
 10
40.389669
 20
214.639653
 30
0.0
 10
56.113680
 20
230.363664
 30
0.0
 10
75.512224
 20
230.363664
 30
0.0
  0
SPLINE
  5
109
100
AcDbEntity
  8
0
 62
7
100
AcDbSpline
 70
8
 71
3
 72
8
 73
4
 74
0
 40
0
 40
0
 40
0
 40
0
 40
1
 40
1
 40
1
 40
1
 10
75.512224
 20
230.363664
 30
0.0
 10
94.910487
 20
230.363664
 30
0.0
 10
110.634498
 20
214.639653
 30
0.0
 10
110.634498
 20
195.241391
 30
0.0
  0
SPLINE
  5
10a
100
AcDbEntity
  8
0
 62
7
100
AcDbSpline
 70
8
 71
3
 72
8
 73
4
 74
0
 40
0
 40
0
 40
0
 40
0
 40
1
 40
1
 40
1
 40
1
 10
110.634498
 20
195.241391
 30
0.0
 10
110.634498
 20
175.842847
 30
0.0
 10
94.910487
 20
160.118836
 30
0.0
 10
75.512224
 20
160.118836
 30
0.0
  0
SPLINE
  5
10b
100
AcDbEntity
  8
0
 62
7
100
AcDbSpline
 70
8
 71
3
 72
8
 73
4
 74
0
 40
0
 40
0
 40
0
 40
0
 40
1
 40
1
 40
1
 40
1
 10
75.512224
 20
160.118836
 30
0.0
 10
56.113680
 20
160.118836
 30
0.0
 10
40.389669
 20
175.842847
 30
0.0
 10
40.389669
 20
195.241391
 30
0.0
  0
LWPOLYLINE
  5
10c
100
AcDbEntity
  8
0
 62
7
100
AcDbPolyline
 90
3
 70
0
 10
38.393229
 20
195.241391
 30
0.0
 10
38.393229
 20
195.241391
 30
0.0
 10
38.393229
 20
195.241391
 30
0.0
  0
SPLINE
  5
10d
100
AcDbEntity
  8
0
 62
7
100
AcDbSpline
 70
8
 71
3
 72
8
 73
4
 74
0
 40
0
 40
0
 40
0
 40
0
 40
1
 40
1
 40
1
 40
1
 10
75.318056
 20
177.761111
 30
0.0
 10
83.361389
 20
177.761111
 30
0.0
 10
96.766944
 20
181.147778
 30
0.0
 10
102.129167
 20
185.804444
 30
0.0
  0
SPLINE
  5
10e
100
AcDbEntity
  8
0
 62
7
100
AcDbSpline
 70
8
 71
3
 72
8
 73
4
 74
0
 40
0
 40
0
 40
0
 40
0
 40
1
 40
1
 40
1
 40
1
 10
102.129167
 20
185.804444
 30
0.0
 10
106.972100
 20
190.010120
 30
0.0
 10
105.798056
 20
195.258889
 30
0.0
 10
102.270278
 20
198.786667
 30
0.0
  0
LWPOLYLINE
  5
10f
100
AcDbEntity
  8
0
 62
7
100
AcDbPolyline
 90
2
 70
0
 10
40.389669
 20
195.241391
 30
0.0
 10
40.389669
 20
195.241391
 30
0.0
  0
SPLINE
  5
110
100
AcDbEntity
  8
0
 62
7
100
AcDbSpline
 70
8
 71
3
 72
8
 73
4
 74
0
 40
0
 40
0
 40
0
 40
0
 40
1
 40
1
 40
1
 40
1
 10
83.784722
 20
218.683333
 30
0.0
 10
82.373611
 20
220.094444
 30
0.0
 10
79.410278
 20
222.211111
 30
0.0
 10
75.318056
 20
222.211111
 30
0.0
  0
SPLINE
  5
111
100
AcDbEntity
  8
0
 62
7
100
AcDbSpline
 70
8
 71
3
 72
8
 73
4
 74
0
 40
0
 40
0
 40
0
 40
0
 40
1
 40
1
 40
1
 40
1
 10
75.318056
 20
222.211111
 30
0.0
 10
71.225833
 20
222.211111
 30
0.0
 10
68.262500
 20
220.094444
 30
0.0
 10
66.851389
 20
218.683333
 30
0.0
  0
LWPOLYLINE
  5
112
100
AcDbEntity
  8
0
 62
7
100
AcDbPolyline
 90
2
 70
0
 10
102.270278
 20
198.786667
 30
0.0
 10
83.784722
 20
218.683333
 30
0.0
  0
SPLINE
  5
113
100
AcDbEntity
  8
0
 62
7
100
AcDbSpline
 70
8
 71
3
 72
8
 73
4
 74
0
 40
0
 40
0
 40
0
 40
0
 40
1
 40
1
 40
1
 40
1
 10
48.365833
 20
198.786667
 30
0.0
 10
44.838056
 20
195.258889
 30
0.0
 10
43.664011
 20
190.010120
 30
0.0
 10
48.506944
 20
185.804444
 30
0.0
  0
SPLINE
  5
114
100
AcDbEntity
  8
0
 62
7
100
AcDbSpline
 70
8
 71
3
 72
8
 73
4
 74
0
 40
0
 40
0
 40
0
 40
0
 40
1
 40
1
 40
1
 40
1
 10
48.506944
 20
185.804444
 30
0.0
 10
53.869167
 20
181.147778
 30
0.0
 10
67.274722
 20
177.761111
 30
0.0
 10
75.318056
 20
177.761111
 30
0.0
  0
SPLINE
  5
115
100
AcDbEntity
  8
0
 62
7
100
AcDbSpline
 70
8
 71
3
 72
8
 73
4
 74
0
 40
0
 40
0
 40
0
 40
0
 40
1
 40
1
 40
1
 40
1
 10
75.318056
 20
177.761111
 30
0.0
 10
75.318056
 20
177.761111
 30
0.0
 10
67.274722
 20
177.761111
 30
0.0
 10
75.318056
 20
177.761111
 30
0.0
  0
LWPOLYLINE
  5
116
100
AcDbEntity
  8
0
 62
7
100
AcDbPolyline
 90
2
 70
0
 10
66.851389
 20
218.683333
 30
0.0
 10
48.365833
 20
198.786667
 30
0.0
  0
SPLINE
  5
117
100
AcDbEntity
  8
0
 62
7
100
AcDbSpline
 70
8
 71
3
 72
8
 73
4
 74
0
 40
0
 40
0
 40
0
 40
0
 40
1
 40
1
 40
1
 40
1
 10
75.318056
 20
177.761111
 30
0.0
 10
83.361389
 20
177.761111
 30
0.0
 10
96.766944
 20
181.147778
 30
0.0
 10
102.129167
 20
185.804444
 30
0.0
  0
SPLINE
  5
118
100
AcDbEntity
  8
0
 62
7
100
AcDbSpline
 70
8
 71
3
 72
8
 73
4
 74
0
 40
0
 40
0
 40
0
 40
0
 40
1
 40
1
 40
1
 40
1
 10
102.129167
 20
185.804444
 30
0.0
 10
106.972100
 20
190.010120
 30
0.0
 10
105.798056
 20
195.258889
 30
0.0
 10
102.270278
 20
198.786667
 30
0.0
  0
LWPOLYLINE
  5
119
100
AcDbEntity
  8
0
 62
7
100
AcDbPolyline
 90
2
 70
0
 10
75.318056
 20
177.761111
 30
0.0
 10
75.318056
 20
177.761111
 30
0.0
  0
SPLINE
  5
11a
100
AcDbEntity
  8
0
 62
7
100
AcDbSpline
 70
8
 71
3
 72
8
 73
4
 74
0
 40
0
 40
0
 40
0
 40
0
 40
1
 40
1
 40
1
 40
1
 10
83.784722
 20
218.683333
 30
0.0
 10
82.373611
 20
220.094444
 30
0.0
 10
79.410278
 20
222.211111
 30
0.0
 10
75.318056
 20
222.211111
 30
0.0
  0
SPLINE
  5
11b
100
AcDbEntity
  8
0
 62
7
100
AcDbSpline
 70
8
 71
3
 72
8
 73
4
 74
0
 40
0
 40
0
 40
0
 40
0
 40
1
 40
1
 40
1
 40
1
 10
75.318056
 20
222.211111
 30
0.0
 10
71.225833
 20
222.211111
 30
0.0
 10
68.262500
 20
220.094444
 30
0.0
 10
66.851389
 20
218.683333
 30
0.0
  0
LWPOLYLINE
  5
11c
100
AcDbEntity
  8
0
 62
7
100
AcDbPolyline
 90
2
 70
0
 10
102.270278
 20
198.786667
 30
0.0
 10
83.784722
 20
218.683333
 30
0.0
  0
SPLINE
  5
11d
100
AcDbEntity
  8
0
 62
7
100
AcDbSpline
 70
8
 71
3
 72
8
 73
4
 74
0
 40
0
 40
0
 40
0
 40
0
 40
1
 40
1
 40
1
 40
1
 10
48.365833
 20
198.786667
 30
0.0
 10
44.838056
 20
195.258889
 30
0.0
 10
43.664011
 20
190.010120
 30
0.0
 10
48.506944
 20
185.804444
 30
0.0
  0
SPLINE
  5
11e
100
AcDbEntity
  8
0
 62
7
100
AcDbSpline
 70
8
 71
3
 72
8
 73
4
 74
0
 40
0
 40
0
 40
0
 40
0
 40
1
 40
1
 40
1
 40
1
 10
48.506944
 20
185.804444
 30
0.0
 10
53.869167
 20
181.147778
 30
0.0
 10
67.274722
 20
177.761111
 30
0.0
 10
75.318056
 20
177.761111
 30
0.0
  0
SPLINE
  5
11f
100
AcDbEntity
  8
0
 62
7
100
AcDbSpline
 70
8
 71
3
 72
8
 73
4
 74
0
 40
0
 40
0
 40
0
 40
0
 40
1
 40
1
 40
1
 40
1
 10
75.318056
 20
177.761111
 30
0.0
 10
75.318056
 20
177.761111
 30
0.0
 10
67.274722
 20
177.761111
 30
0.0
 10
75.318056
 20
177.761111
 30
0.0
  0
LWPOLYLINE
  5
120
100
AcDbEntity
  8
0
 62
7
100
AcDbPolyline
 90
2
 70
0
 10
66.851389
 20
218.683333
 30
0.0
 10
48.365833
 20
198.786667
 30
0.0
  0
SPLINE
  5
121
100
AcDbEntity
  8
0
 62
7
100
AcDbSpline
 70
8
 71
3
 72
8
 73
4
 74
0
 40
0
 40
0
 40
0
 40
0
 40
1
 40
1
 40
1
 40
1
 10
75.318056
 20
177.761111
 30
0.0
 10
83.361389
 20
177.761111
 30
0.0
 10
96.766944
 20
181.147778
 30
0.0
 10
102.129167
 20
185.804444
 30
0.0
  0
SPLINE
  5
122
100
AcDbEntity
  8
0
 62
7
100
AcDbSpline
 70
8
 71
3
 72
8
 73
4
 74
0
 40
0
 40
0
 40
0
 40
0
 40
1
 40
1
 40
1
 40
1
 10
102.129167
 20
185.804444
 30
0.0
 10
106.972100
 20
190.010120
 30
0.0
 10
105.798056
 20
195.258889
 30
0.0
 10
102.270278
 20
198.786667
 30
0.0
  0
LWPOLYLINE
  5
123
100
AcDbEntity
  8
0
 62
7
100
AcDbPolyline
 90
2
 70
0
 10
75.318056
 20
177.761111
 30
0.0
 10
75.318056
 20
177.761111
 30
0.0
  0
SPLINE
  5
124
100
AcDbEntity
  8
0
 62
7
100
AcDbSpline
 70
8
 71
3
 72
8
 73
4
 74
0
 40
0
 40
0
 40
0
 40
0
 40
1
 40
1
 40
1
 40
1
 10
83.784722
 20
218.683333
 30
0.0
 10
82.373611
 20
220.094444
 30
0.0
 10
79.410278
 20
222.211111
 30
0.0
 10
75.318056
 20
222.211111
 30
0.0
  0
SPLINE
  5
125
100
AcDbEntity
  8
0
 62
7
100
AcDbSpline
 70
8
 71
3
 72
8
 73
4
 74
0
 40
0
 40
0
 40
0
 40
0
 40
1
 40
1
 40
1
 40
1
 10
75.318056
 20
222.211111
 30
0.0
 10
71.225833
 20
222.211111
 30
0.0
 10
68.262500
 20
220.094444
 30
0.0
 10
66.851389
 20
218.683333
 30
0.0
  0
LWPOLYLINE
  5
126
100
AcDbEntity
  8
0
 62
7
100
AcDbPolyline
 90
2
 70
0
 10
102.270278
 20
198.786667
 30
0.0
 10
83.784722
 20
218.683333
 30
0.0
  0
SPLINE
  5
127
100
AcDbEntity
  8
0
 62
7
100
AcDbSpline
 70
8
 71
3
 72
8
 73
4
 74
0
 40
0
 40
0
 40
0
 40
0
 40
1
 40
1
 40
1
 40
1
 10
48.365833
 20
198.786667
 30
0.0
 10
44.838056
 20
195.258889
 30
0.0
 10
43.664011
 20
190.010120
 30
0.0
 10
48.506944
 20
185.804444
 30
0.0
  0
SPLINE
  5
128
100
AcDbEntity
  8
0
 62
7
100
AcDbSpline
 70
8
 71
3
 72
8
 73
4
 74
0
 40
0
 40
0
 40
0
 40
0
 40
1
 40
1
 40
1
 40
1
 10
48.506944
 20
185.804444
 30
0.0
 10
53.869167
 20
181.147778
 30
0.0
 10
67.274722
 20
177.761111
 30
0.0
 10
75.318056
 20
177.761111
 30
0.0
  0
SPLINE
  5
129
100
AcDbEntity
  8
0
 62
7
100
AcDbSpline
 70
8
 71
3
 72
8
 73
4
 74
0
 40
0
 40
0
 40
0
 40
0
 40
1
 40
1
 40
1
 40
1
 10
75.318056
 20
177.761111
 30
0.0
 10
75.318056
 20
177.761111
 30
0.0
 10
67.274722
 20
177.761111
 30
0.0
 10
75.318056
 20
177.761111
 30
0.0
  0
LWPOLYLINE
  5
12a
100
AcDbEntity
  8
0
 62
7
100
AcDbPolyline
 90
2
 70
0
 10
66.851389
 20
218.683333
 30
0.0
 10
48.365833
 20
198.786667
 30
0.0
  0
SPLINE
  5
12b
100
AcDbEntity
  8
0
 62
7
100
AcDbSpline
 70
8
 71
3
 72
8
 73
4
 74
0
 40
0
 40
0
 40
0
 40
0
 40
1
 40
1
 40
1
 40
1
 10
74.965278
 20
192.613056
 30
0.0
 10
74.048056
 20
192.613056
 30
0.0
 10
71.649167
 20
192.718889
 30
0.0
 10
70.873056
 20
192.824722
 30
0.0
  0
LWPOLYLINE
  5
12c
100
AcDbEntity
  8
0
 62
7
100
AcDbPolyline
 90
2
 70
0
 10
75.318056
 20
177.761111
 30
0.0
 10
75.318056
 20
177.761111
 30
0.0
  0
SPLINE
  5
12d
100
AcDbEntity
  8
0
 62
7
100
AcDbSpline
 70
8
 71
3
 72
8
 73
4
 74
0
 40
0
 40
0
 40
0
 40
0
 40
1
 40
1
 40
1
 40
1
 10
70.238056
 20
191.413611
 30
0.0
 10
69.991111
 20
190.884444
 30
0.0
 10
70.661389
 20
190.637500
 30
0.0
 10
70.943611
 20
190.919722
 30
0.0
  0
SPLINE
  5
12e
100
AcDbEntity
  8
0
 62
7
100
AcDbSpline
 70
8
 71
3
 72
8
 73
4
 74
0
 40
0
 40
0
 40
0
 40
0
 40
1
 40
1
 40
1
 40
1
 10
70.943611
 20
190.919722
 30
0.0
 10
71.225833
 20
191.201944
 30
0.0
 10
72.778056
 20
191.978056
 30
0.0
 10
73.518889
 20
191.378333
 30
0.0
  0
LWPOLYLINE
  5
12f
100
AcDbEntity
  8
0
 62
7
100
AcDbPolyline
 90
2
 70
0
 10
70.873056
 20
192.824722
 30
0.0
 10
70.238056
 20
191.413611
 30
0.0
  0
SPLINE
  5
130
100
AcDbEntity
  8
0
 62
7
100
AcDbSpline
 70
8
 71
3
 72
8
 73
4
 74
0
 40
0
 40
0
 40
0
 40
0
 40
1
 40
1
 40
1
 40
1
 10
73.518889
 20
184.640278
 30
0.0
 10
73.518889
 20
184.181667
 30
0.0
 10
73.078058
 20
183.793611
 30
0.0
 10
72.760558
 20
183.793611
 30
0.0
  0
SPLINE
  5
131
100
AcDbEntity
  8
0
 62
7
100
AcDbSpline
 70
8
 71
3
 72
8
 73
4
 74
0
 40
0
 40
0
 40
0
 40
0
 40
1
 40
1
 40
1
 40
1
 10
72.760558
 20
183.793611
 30
0.0
 10
72.443058
 20
183.793611
 30
0.0
 10
72.178333
 20
183.581944
 30
0.0
 10
72.178333
 20
183.335000
 30
0.0
  0
SPLINE
  5
132
100
AcDbEntity
  8
0
 62
7
100
AcDbSpline
 70
8
 71
3
 72
8
 73
4
 74
0
 40
0
 40
0
 40
0
 40
0
 40
1
 40
1
 40
1
 40
1
 10
72.178333
 20
183.335000
 30
0.0
 10
72.178333
 20
183.088056
 30
0.0
 10
72.320573
 20
182.911667
 30
0.0
 10
72.848611
 20
182.876389
 30
0.0
  0
SPLINE
  5
133
100
AcDbEntity
  8
0
 62
7
100
AcDbSpline
 70
8
 71
3
 72
8
 73
4
 74
0
 40
0
 40
0
 40
0
 40
0
 40
1
 40
1
 40
1
 40
1
 10
72.848611
 20
182.876389
 30
0.0
 10
73.906944
 20
182.805833
 30
0.0
 10
76.376389
 20
182.805833
 30
0.0
 10
77.081944
 20
182.876389
 30
0.0
  0
SPLINE
  5
134
100
AcDbEntity
  8
0
 62
7
100
AcDbSpline
 70
8
 71
3
 72
8
 73
4
 74
0
 40
0
 40
0
 40
0
 40
0
 40
1
 40
1
 40
1
 40
1
 10
77.081944
 20
182.876389
 30
0.0
 10
77.611111
 20
182.876389
 30
0.0
 10
77.752222
 20
183.088056
 30
0.0
 10
77.752222
 20
183.335000
 30
0.0
  0
SPLINE
  5
135
100
AcDbEntity
  8
0
 62
7
100
AcDbSpline
 70
8
 71
3
 72
8
 73
4
 74
0
 40
0
 40
0
 40
0
 40
0
 40
1
 40
1
 40
1
 40
1
 10
77.752222
 20
183.335000
 30
0.0
 10
77.752222
 20
183.581944
 30
0.0
 10
77.487780
 20
183.793611
 30
0.0
 10
77.170280
 20
183.793611
 30
0.0
  0
SPLINE
  5
136
100
AcDbEntity
  8
0
 62
7
100
AcDbSpline
 70
8
 71
3
 72
8
 73
4
 74
0
 40
0
 40
0
 40
0
 40
0
 40
1
 40
1
 40
1
 40
1
 10
77.170280
 20
183.793611
 30
0.0
 10
76.852780
 20
183.793611
 30
0.0
 10
76.411667
 20
184.181667
 30
0.0
 10
76.411667
 20
184.640278
 30
0.0
  0
LWPOLYLINE
  5
137
100
AcDbEntity
  8
0
 62
7
100
AcDbPolyline
 90
2
 70
0
 10
73.518889
 20
191.378333
 30
0.0
 10
73.518889
 20
184.640278
 30
0.0
  0
SPLINE
  5
138
100
AcDbEntity
  8
0
 62
7
100
AcDbSpline
 70
8
 71
3
 72
8
 73
4
 74
0
 40
0
 40
0
 40
0
 40
0
 40
1
 40
1
 40
1
 40
1
 10
76.411667
 20
191.378333
 30
0.0
 10
77.152500
 20
191.978056
 30
0.0
 10
78.704722
 20
191.201944
 30
0.0
 10
78.986944
 20
190.919722
 30
0.0
  0
SPLINE
  5
139
100
AcDbEntity
  8
0
 62
7
100
AcDbSpline
 70
8
 71
3
 72
8
 73
4
 74
0
 40
0
 40
0
 40
0
 40
0
 40
1
 40
1
 40
1
 40
1
 10
78.986944
 20
190.919722
 30
0.0
 10
79.269167
 20
190.637500
 30
0.0
 10
79.939444
 20
190.884444
 30
0.0
 10
79.692500
 20
191.413611
 30
0.0
  0
LWPOLYLINE
  5
13a
100
AcDbEntity
  8
0
 62
7
100
AcDbPolyline
 90
2
 70
0
 10
76.411667
 20
184.640278
 30
0.0
 10
76.411667
 20
191.378333
 30
0.0
  0
SPLINE
  5
13b
100
AcDbEntity
  8
0
 62
7
100
AcDbSpline
 70
8
 71
3
 72
8
 73
4
 74
0
 40
0
 40
0
 40
0
 40
0
 40
1
 40
1
 40
1
 40
1
 10
79.057500
 20
192.824722
 30
0.0
 10
78.281389
 20
192.718889
 30
0.0
 10
75.882500
 20
192.613056
 30
0.0
 10
74.965278
 20
192.613056
 30
0.0
  0
SPLINE
  5
13c
100
AcDbEntity
  8
0
 62
7
100
AcDbSpline
 70
8
 71
3
 72
8
 73
4
 74
0
 40
0
 40
0
 40
0
 40
0
 40
1
 40
1
 40
1
 40
1
 10
74.965278
 20
192.613056
 30
0.0
 10
74.965278
 20
192.613056
 30
0.0
 10
75.882500
 20
192.613056
 30
0.0
 10
74.965278
 20
192.613056
 30
0.0
  0
LWPOLYLINE
  5
13d
100
AcDbEntity
  8
0
 62
7
100
AcDbPolyline
 90
2
 70
0
 10
79.692500
 20
191.413611
 30
0.0
 10
79.057500
 20
192.824722
 30
0.0
  0
SPLINE
  5
13e
100
AcDbEntity
  8
0
 62
7
100
AcDbSpline
 70
8
 71
3
 72
8
 73
4
 74
0
 40
0
 40
0
 40
0
 40
0
 40
1
 40
1
 40
1
 40
1
 10
80.645000
 20
192.965833
 30
0.0
 10
80.186389
 20
192.860000
 30
0.0
 10
80.133613
 20
192.489724
 30
0.0
 10
80.204169
 20
192.313336
 30
0.0
  0
SPLINE
  5
13f
100
AcDbEntity
  8
0
 62
7
100
AcDbSpline
 70
8
 71
3
 72
8
 73
4
 74
0
 40
0
 40
0
 40
0
 40
0
 40
1
 40
1
 40
1
 40
1
 10
80.204169
 20
192.313336
 30
0.0
 10
80.274724
 20
192.136947
 30
0.0
 10
80.503889
 20
192.031113
 30
0.0
 10
80.821389
 20
191.995836
 30
0.0
  0
SPLINE
  5
140
100
AcDbEntity
  8
0
 62
7
100
AcDbSpline
 70
8
 71
3
 72
8
 73
4
 74
0
 40
0
 40
0
 40
0
 40
0
 40
1
 40
1
 40
1
 40
1
 10
80.821389
 20
191.995836
 30
0.0
 10
81.138889
 20
191.960558
 30
0.0
 10
81.350556
 20
191.731111
 30
0.0
 10
81.421111
 20
191.413611
 30
0.0
  0
LWPOLYLINE
  5
141
100
AcDbEntity
  8
0
 62
7
100
AcDbPolyline
 90
2
 70
0
 10
74.965278
 20
192.613056
 30
0.0
 10
74.965278
 20
192.613056
 30
0.0
  0
SPLINE
  5
142
100
AcDbEntity
  8
0
 62
7
100
AcDbSpline
 70
8
 71
3
 72
8
 73
4
 74
0
 40
0
 40
0
 40
0
 40
0
 40
1
 40
1
 40
1
 40
1
 10
82.938056
 20
186.227778
 30
0.0
 10
83.220278
 20
185.204722
 30
0.0
 10
85.125278
 20
183.299722
 30
0.0
 10
88.794167
 20
184.675556
 30
0.0
  0
SPLINE
  5
143
100
AcDbEntity
  8
0
 62
7
100
AcDbSpline
 70
8
 71
3
 72
8
 73
4
 74
0
 40
0
 40
0
 40
0
 40
0
 40
1
 40
1
 40
1
 40
1
 10
88.794167
 20
184.675556
 30
0.0
 10
92.463056
 20
186.051389
 30
0.0
 10
91.263611
 20
188.838333
 30
0.0
 10
91.087222
 20
189.367500
 30
0.0
  0
LWPOLYLINE
  5
144
100
AcDbEntity
  8
0
 62
7
100
AcDbPolyline
 90
2
 70
0
 10
81.421111
 20
191.413611
 30
0.0
 10
82.938056
 20
186.227778
 30
0.0
  0
SPLINE
  5
145
100
AcDbEntity
  8
0
 62
7
100
AcDbSpline
 70
8
 71
3
 72
8
 73
4
 74
0
 40
0
 40
0
 40
0
 40
0
 40
1
 40
1
 40
1
 40
1
 10
89.852500
 20
193.600833
 30
0.0
 10
89.676111
 20
194.200556
 30
0.0
 10
89.817222
 20
194.376944
 30
0.0
 10
89.993611
 20
194.623889
 30
0.0
  0
SPLINE
  5
146
100
AcDbEntity
  8
0
 62
7
100
AcDbSpline
 70
8
 71
3
 72
8
 73
4
 74
0
 40
0
 40
0
 40
0
 40
0
 40
1
 40
1
 40
1
 40
1
 10
89.993611
 20
194.623889
 30
0.0
 10
90.170000
 20
194.870833
 30
0.0
 10
90.134722
 20
195.717500
 30
0.0
 10
89.323333
 20
195.435278
 30
0.0
  0
SPLINE
  5
147
100
AcDbEntity
  8
0
 62
7
100
AcDbSpline
 70
8
 71
3
 72
8
 73
4
 74
0
 40
0
 40
0
 40
0
 40
0
 40
1
 40
1
 40
1
 40
1
 10
89.323333
 20
195.435278
 30
0.0
 10
88.829444
 20
195.258889
 30
0.0
 10
87.982778
 20
195.011944
 30
0.0
 10
87.665278
 20
194.906111
 30
0.0
  0
SPLINE
  5
148
100
AcDbEntity
  8
0
 62
7
100
AcDbSpline
 70
8
 71
3
 72
8
 73
4
 74
0
 40
0
 40
0
 40
0
 40
0
 40
1
 40
1
 40
1
 40
1
 10
87.665278
 20
194.906111
 30
0.0
 10
87.347778
 20
194.800278
 30
0.0
 10
87.065556
 20
194.130000
 30
0.0
 10
87.630000
 20
194.024167
 30
0.0
  0
SPLINE
  5
149
100
AcDbEntity
  8
0
 62
7
100
AcDbSpline
 70
8
 71
3
 72
8
 73
4
 74
0
 40
0
 40
0
 40
0
 40
0
 40
1
 40
1
 40
1
 40
1
 10
87.630000
 20
194.024167
 30
0.0
 10
88.194444
 20
193.918333
 30
0.0
 10
88.370833
 20
193.883056
 30
0.0
 10
88.511944
 20
193.353889
 30
0.0
  0
LWPOLYLINE
  5
14a
100
AcDbEntity
  8
0
 62
7
100
AcDbPolyline
 90
2
 70
0
 10
91.087222
 20
189.367500
 30
0.0
 10
89.852500
 20
193.600833
 30
0.0
  0
SPLINE
  5
14b
100
AcDbEntity
  8
0
 62
7
100
AcDbSpline
 70
8
 71
3
 72
8
 73
4
 74
0
 40
0
 40
0
 40
0
 40
0
 40
1
 40
1
 40
1
 40
1
 10
89.746667
 20
189.120556
 30
0.0
 10
90.064167
 20
187.991667
 30
0.0
 10
89.958333
 20
186.721667
 30
0.0
 10
88.406111
 20
186.157222
 30
0.0
  0
SPLINE
  5
14c
100
AcDbEntity
  8
0
 62
7
100
AcDbSpline
 70
8
 71
3
 72
8
 73
4
 74
0
 40
0
 40
0
 40
0
 40
0
 40
1
 40
1
 40
1
 40
1
 10
88.406111
 20
186.157222
 30
0.0
 10
86.853889
 20
185.592778
 30
0.0
 10
85.619167
 20
186.615833
 30
0.0
 10
85.407500
 20
187.321389
 30
0.0
  0
LWPOLYLINE
  5
14d
100
AcDbEntity
  8
0
 62
7
100
AcDbPolyline
 90
2
 70
0
 10
88.511944
 20
193.353889
 30
0.0
 10
89.746667
 20
189.120556
 30
0.0
  0
SPLINE
  5
14e
100
AcDbEntity
  8
0
 62
7
100
AcDbSpline
 70
8
 71
3
 72
8
 73
4
 74
0
 40
0
 40
0
 40
0
 40
0
 40
1
 40
1
 40
1
 40
1
 10
84.172778
 20
191.519444
 30
0.0
 10
84.031667
 20
192.119167
 30
0.0
 10
84.084724
 20
192.507222
 30
0.0
 10
84.437502
 20
192.718889
 30
0.0
  0
SPLINE
  5
14f
100
AcDbEntity
  8
0
 62
7
100
AcDbSpline
 70
8
 71
3
 72
8
 73
4
 74
0
 40
0
 40
0
 40
0
 40
0
 40
1
 40
1
 40
1
 40
1
 10
84.437502
 20
192.718889
 30
0.0
 10
84.790280
 20
192.930556
 30
0.0
 10
84.860836
 20
193.847778
 30
0.0
 10
84.155280
 20
193.706667
 30
0.0
  0
SPLINE
  5
150
100
AcDbEntity
  8
0
 62
7
100
AcDbSpline
 70
8
 71
3
 72
8
 73
4
 74
0
 40
0
 40
0
 40
0
 40
0
 40
1
 40
1
 40
1
 40
1
 10
84.155280
 20
193.706667
 30
0.0
 10
83.449724
 20
193.565556
 30
0.0
 10
81.033056
 20
192.930556
 30
0.0
 10
80.645000
 20
192.965833
 30
0.0
  0
SPLINE
  5
151
100
AcDbEntity
  8
0
 62
7
100
AcDbSpline
 70
8
 71
3
 72
8
 73
4
 74
0
 40
0
 40
0
 40
0
 40
0
 40
1
 40
1
 40
1
 40
1
 10
80.645000
 20
192.965833
 30
0.0
 10
80.645000
 20
192.965833
 30
0.0
 10
81.033056
 20
192.930556
 30
0.0
 10
80.645000
 20
192.965833
 30
0.0
  0
LWPOLYLINE
  5
152
100
AcDbEntity
  8
0
 62
7
100
AcDbPolyline
 90
2
 70
0
 10
85.407500
 20
187.321389
 30
0.0
 10
84.172778
 20
191.519444
 30
0.0
  0
SPLINE
  5
153
100
AcDbEntity
  8
0
 62
7
100
AcDbSpline
 70
8
 71
3
 72
8
 73
4
 74
0
 40
0
 40
0
 40
0
 40
0
 40
1
 40
1
 40
1
 40
1
 10
65.581389
 20
194.130000
 30
0.0
 10
63.746944
 20
195.117778
 30
0.0
 10
60.289722
 20
195.364722
 30
0.0
 10
58.596389
 20
192.295556
 30
0.0
  0
SPLINE
  5
154
100
AcDbEntity
  8
0
 62
7
100
AcDbSpline
 70
8
 71
3
 72
8
 73
4
 74
0
 40
0
 40
0
 40
0
 40
0
 40
1
 40
1
 40
1
 40
1
 10
58.596389
 20
192.295556
 30
0.0
 10
56.827984
 20
189.089793
 30
0.0
 10
58.031944
 20
186.510000
 30
0.0
 10
61.136389
 20
185.028333
 30
0.0
  0
SPLINE
  5
155
100
AcDbEntity
  8
0
 62
7
100
AcDbSpline
 70
8
 71
3
 72
8
 73
4
 74
0
 40
0
 40
0
 40
0
 40
0
 40
1
 40
1
 40
1
 40
1
 10
61.136389
 20
185.028333
 30
0.0
 10
65.181198
 20
183.097933
 30
0.0
 10
67.451111
 20
185.910278
 30
0.0
 10
68.015556
 20
187.180278
 30
0.0
  0
SPLINE
  5
156
100
AcDbEntity
  8
0
 62
7
100
AcDbSpline
 70
8
 71
3
 72
8
 73
4
 74
0
 40
0
 40
0
 40
0
 40
0
 40
1
 40
1
 40
1
 40
1
 10
68.015556
 20
187.180278
 30
0.0
 10
68.926287
 20
189.229776
 30
0.0
 10
69.391389
 20
192.083889
 30
0.0
 10
65.581389
 20
194.130000
 30
0.0
  0
SPLINE
  5
157
100
AcDbEntity
  8
0
 62
7
100
AcDbSpline
 70
8
 71
3
 72
8
 73
4
 74
0
 40
0
 40
0
 40
0
 40
0
 40
1
 40
1
 40
1
 40
1
 10
65.581389
 20
194.130000
 30
0.0
 10
65.581389
 20
194.130000
 30
0.0
 10
69.391389
 20
192.083889
 30
0.0
 10
65.581389
 20
194.130000
 30
0.0
  0
LWPOLYLINE
  5
158
100
AcDbEntity
  8
0
 62
7
100
AcDbPolyline
 90
2
 70
0
 10
80.645000
 20
192.965833
 30
0.0
 10
80.645000
 20
192.965833
 30
0.0
  0
SPLINE
  5
159
100
AcDbEntity
  8
0
 62
7
100
AcDbSpline
 70
8
 71
3
 72
8
 73
4
 74
0
 40
0
 40
0
 40
0
 40
0
 40
1
 40
1
 40
1
 40
1
 10
64.911111
 20
193.036389
 30
0.0
 10
63.429444
 20
193.706667
 30
0.0
 10
62.053611
 20
193.071667
 30
0.0
 10
60.995278
 20
191.096111
 30
0.0
  0
SPLINE
  5
15a
100
AcDbEntity
  8
0
 62
7
100
AcDbSpline
 70
8
 71
3
 72
8
 73
4
 74
0
 40
0
 40
0
 40
0
 40
0
 40
1
 40
1
 40
1
 40
1
 10
60.995278
 20
191.096111
 30
0.0
 10
59.936944
 20
189.120556
 30
0.0
 10
60.171753
 20
187.062309
 30
0.0
 10
61.348056
 20
186.439444
 30
0.0
  0
SPLINE
  5
15b
100
AcDbEntity
  8
0
 62
7
100
AcDbSpline
 70
8
 71
3
 72
8
 73
4
 74
0
 40
0
 40
0
 40
0
 40
0
 40
1
 40
1
 40
1
 40
1
 10
61.348056
 20
186.439444
 30
0.0
 10
62.547500
 20
185.804444
 30
0.0
 10
64.029167
 20
185.875000
 30
0.0
 10
65.369722
 20
188.344444
 30
0.0
  0
SPLINE
  5
15c
100
AcDbEntity
  8
0
 62
7
100
AcDbSpline
 70
8
 71
3
 72
8
 73
4
 74
0
 40
0
 40
0
 40
0
 40
0
 40
1
 40
1
 40
1
 40
1
 10
65.369722
 20
188.344444
 30
0.0
 10
66.710278
 20
190.813889
 30
0.0
 10
66.216389
 20
192.225000
 30
0.0
 10
64.911111
 20
193.036389
 30
0.0
  0
SPLINE
  5
15d
100
AcDbEntity
  8
0
 62
7
100
AcDbSpline
 70
8
 71
3
 72
8
 73
4
 74
0
 40
0
 40
0
 40
0
 40
0
 40
1
 40
1
 40
1
 40
1
 10
64.911111
 20
193.036389
 30
0.0
 10
64.911111
 20
193.036389
 30
0.0
 10
66.216389
 20
192.225000
 30
0.0
 10
64.911111
 20
193.036389
 30
0.0
  0
LWPOLYLINE
  5
15e
100
AcDbEntity
  8
0
 62
7
100
AcDbPolyline
 90
2
 70
0
 10
65.581389
 20
194.130000
 30
0.0
 10
65.581389
 20
194.130000
 30
0.0
  0
SPLINE
  5
15f
100
AcDbEntity
  8
0
 62
7
100
AcDbSpline
 70
8
 71
3
 72
8
 73
4
 74
0
 40
0
 40
0
 40
0
 40
0
 40
1
 40
1
 40
1
 40
1
 10
54.310280
 20
199.756947
 30
0.0
 10
54.063336
 20
200.056667
 30
0.0
 10
53.781113
 20
200.039169
 30
0.0
 10
53.604724
 20
199.827502
 30
0.0
  0
SPLINE
  5
160
100
AcDbEntity
  8
0
 62
7
100
AcDbSpline
 70
8
 71
3
 72
8
 73
4
 74
0
 40
0
 40
0
 40
0
 40
0
 40
1
 40
1
 40
1
 40
1
 10
53.604724
 20
199.827502
 30
0.0
 10
53.428336
 20
199.615836
 30
0.0
 10
53.534169
 20
199.368891
 30
0.0
 10
53.745836
 20
199.121947
 30
0.0
  0
SPLINE
  5
161
100
AcDbEntity
  8
0
 62
7
100
AcDbSpline
 70
8
 71
3
 72
8
 73
4
 74
0
 40
0
 40
0
 40
0
 40
0
 40
1
 40
1
 40
1
 40
1
 10
53.745836
 20
199.121947
 30
0.0
 10
53.957502
 20
198.875002
 30
0.0
 10
54.133891
 20
198.328056
 30
0.0
 10
53.833889
 20
197.993058
 30
0.0
  0
LWPOLYLINE
  5
162
100
AcDbEntity
  8
0
 62
7
100
AcDbPolyline
 90
2
 70
0
 10
64.911111
 20
193.036389
 30
0.0
 10
64.911111
 20
193.036389
 30
0.0
  0
SPLINE
  5
163
100
AcDbEntity
  8
0
 62
7
100
AcDbSpline
 70
8
 71
3
 72
8
 73
4
 74
0
 40
0
 40
0
 40
0
 40
0
 40
1
 40
1
 40
1
 40
1
 10
49.900558
 20
192.877780
 30
0.0
 10
49.635833
 20
192.577778
 30
0.0
 10
49.124447
 20
192.560280
 30
0.0
 10
48.771669
 20
192.824722
 30
0.0
  0
SPLINE
  5
164
100
AcDbEntity
  8
0
 62
7
100
AcDbSpline
 70
8
 71
3
 72
8
 73
4
 74
0
 40
0
 40
0
 40
0
 40
0
 40
1
 40
1
 40
1
 40
1
 10
48.771669
 20
192.824722
 30
0.0
 10
48.418891
 20
193.089447
 30
0.0
 10
47.783891
 20
192.630836
 30
0.0
 10
48.313058
 20
192.242780
 30
0.0
  0
SPLINE
  5
165
100
AcDbEntity
  8
0
 62
7
100
AcDbSpline
 70
8
 71
3
 72
8
 73
4
 74
0
 40
0
 40
0
 40
0
 40
0
 40
1
 40
1
 40
1
 40
1
 10
48.313058
 20
192.242780
 30
0.0
 10
48.842224
 20
191.854724
 30
0.0
 10
53.322502
 20
188.573891
 30
0.0
 10
54.874724
 20
187.885833
 30
0.0
  0
LWPOLYLINE
  5
166
100
AcDbEntity
  8
0
 62
7
100
AcDbPolyline
 90
2
 70
0
 10
53.833889
 20
197.993058
 30
0.0
 10
49.900558
 20
192.877780
 30
0.0
  0
SPLINE
  5
167
100
AcDbEntity
  8
0
 62
7
100
AcDbSpline
 70
8
 71
3
 72
8
 73
4
 74
0
 40
0
 40
0
 40
0
 40
0
 40
1
 40
1
 40
1
 40
1
 10
56.497502
 20
189.385280
 30
0.0
 10
56.726667
 20
189.614444
 30
0.0
 10
56.483109
 20
190.145869
 30
0.0
 10
56.091667
 20
189.879169
 30
0.0
  0
SPLINE
  5
168
100
AcDbEntity
  8
0
 62
7
100
AcDbSpline
 70
8
 71
3
 72
8
 73
4
 74
0
 40
0
 40
0
 40
0
 40
0
 40
1
 40
1
 40
1
 40
1
 10
56.091667
 20
189.879169
 30
0.0
 10
54.821667
 20
189.014722
 30
0.0
 10
52.758058
 20
189.455836
 30
0.0
 10
52.070000
 20
191.396113
 30
0.0
  0
LWPOLYLINE
  5
169
100
AcDbEntity
  8
0
 62
7
100
AcDbPolyline
 90
2
 70
0
 10
54.874724
 20
187.885833
 30
0.0
 10
56.497502
 20
189.385280
 30
0.0
  0
SPLINE
  5
16a
100
AcDbEntity
  8
0
 62
7
100
AcDbSpline
 70
8
 71
3
 72
8
 73
4
 74
0
 40
0
 40
0
 40
0
 40
0
 40
1
 40
1
 40
1
 40
1
 10
55.897780
 20
196.387778
 30
0.0
 10
56.056389
 20
196.599444
 30
0.0
 10
56.478593
 20
197.055798
 30
0.0
 10
57.061947
 20
196.811111
 30
0.0
  0
SPLINE
  5
16b
100
AcDbEntity
  8
0
 62
7
100
AcDbSpline
 70
8
 71
3
 72
8
 73
4
 74
0
 40
0
 40
0
 40
0
 40
0
 40
1
 40
1
 40
1
 40
1
 10
57.061947
 20
196.811111
 30
0.0
 10
57.396944
 20
196.670000
 30
0.0
 10
57.538056
 20
196.793613
 30
0.0
 10
57.626391
 20
196.934724
 30
0.0
  0
SPLINE
  5
16c
100
AcDbEntity
  8
0
 62
7
100
AcDbSpline
 70
8
 71
3
 72
8
 73
4
 74
0
 40
0
 40
0
 40
0
 40
0
 40
1
 40
1
 40
1
 40
1
 10
57.626391
 20
196.934724
 30
0.0
 10
57.714444
 20
197.075836
 30
0.0
 10
57.702309
 20
197.385433
 30
0.0
 10
57.485280
 20
197.499169
 30
0.0
  0
SPLINE
  5
16d
100
AcDbEntity
  8
0
 62
7
100
AcDbSpline
 70
8
 71
3
 72
8
 73
4
 74
0
 40
0
 40
0
 40
0
 40
0
 40
1
 40
1
 40
1
 40
1
 10
57.485280
 20
197.499169
 30
0.0
 10
57.114722
 20
197.693056
 30
0.0
 10
54.610000
 20
199.474724
 30
0.0
 10
54.310280
 20
199.756947
 30
0.0
  0
SPLINE
  5
16e
100
AcDbEntity
  8
0
 62
7
100
AcDbSpline
 70
8
 71
3
 72
8
 73
4
 74
0
 40
0
 40
0
 40
0
 40
0
 40
1
 40
1
 40
1
 40
1
 10
54.310280
 20
199.756947
 30
0.0
 10
54.310280
 20
199.756947
 30
0.0
 10
54.610000
 20
199.474724
 30
0.0
 10
54.310280
 20
199.756947
 30
0.0
  0
LWPOLYLINE
  5
16f
100
AcDbEntity
  8
0
 62
7
100
AcDbPolyline
 90
2
 70
0
 10
52.070000
 20
191.396113
 30
0.0
 10
55.897780
 20
196.387778
 30
0.0
  0
SPLINE
  5
170
100
AcDbEntity
  8
0
 62
7
100
AcDbSpline
 70
8
 71
3
 72
8
 73
4
 74
0
 40
0
 40
0
 40
0
 40
0
 40
1
 40
1
 40
1
 40
1
 10
97.790000
 20
198.998333
 30
0.0
 10
97.331389
 20
198.751389
 30
0.0
 10
96.625833
 20
198.680833
 30
0.0
 10
96.026111
 20
198.539722
 30
0.0
  0
SPLINE
  5
171
100
AcDbEntity
  8
0
 62
7
100
AcDbSpline
 70
8
 71
3
 72
8
 73
4
 74
0
 40
0
 40
0
 40
0
 40
0
 40
1
 40
1
 40
1
 40
1
 10
96.026111
 20
198.539722
 30
0.0
 10
95.426389
 20
198.398611
 30
0.0
 10
94.262222
 20
198.045833
 30
0.0
 10
93.521389
 20
197.587222
 30
0.0
  0
SPLINE
  5
172
100
AcDbEntity
  8
0
 62
7
100
AcDbSpline
 70
8
 71
3
 72
8
 73
4
 74
0
 40
0
 40
0
 40
0
 40
0
 40
1
 40
1
 40
1
 40
1
 10
93.521389
 20
197.587222
 30
0.0
 10
92.780556
 20
197.128611
 30
0.0
 10
90.910833
 20
195.364722
 30
0.0
 10
92.004444
 20
193.212778
 30
0.0
  0
SPLINE
  5
173
100
AcDbEntity
  8
0
 62
7
100
AcDbSpline
 70
8
 71
3
 72
8
 73
4
 74
0
 40
0
 40
0
 40
0
 40
0
 40
1
 40
1
 40
1
 40
1
 10
92.004444
 20
193.212778
 30
0.0
 10
92.604167
 20
192.154444
 30
0.0
 10
93.944722
 20
191.484167
 30
0.0
 10
96.837500
 20
192.366111
 30
0.0
  0
SPLINE
  5
174
100
AcDbEntity
  8
0
 62
7
100
AcDbSpline
 70
8
 71
3
 72
8
 73
4
 74
0
 40
0
 40
0
 40
0
 40
0
 40
1
 40
1
 40
1
 40
1
 10
96.837500
 20
192.366111
 30
0.0
 10
97.860556
 20
192.683611
 30
0.0
 10
99.518611
 20
193.177500
 30
0.0
 10
99.836111
 20
192.471944
 30
0.0
  0
SPLINE
  5
175
100
AcDbEntity
  8
0
 62
7
100
AcDbSpline
 70
8
 71
3
 72
8
 73
4
 74
0
 40
0
 40
0
 40
0
 40
0
 40
1
 40
1
 40
1
 40
1
 10
99.836111
 20
192.471944
 30
0.0
 10
100.153611
 20
191.766389
 30
0.0
 10
99.377500
 20
190.672778
 30
0.0
 10
98.178056
 20
190.178889
 30
0.0
  0
SPLINE
  5
176
100
AcDbEntity
  8
0
 62
7
100
AcDbSpline
 70
8
 71
3
 72
8
 73
4
 74
0
 40
0
 40
0
 40
0
 40
0
 40
1
 40
1
 40
1
 40
1
 10
98.178056
 20
190.178889
 30
0.0
 10
96.978611
 20
189.685000
 30
0.0
 10
95.250000
 20
189.790833
 30
0.0
 10
94.509167
 20
190.178889
 30
0.0
  0
SPLINE
  5
177
100
AcDbEntity
  8
0
 62
7
100
AcDbSpline
 70
8
 71
3
 72
8
 73
4
 74
0
 40
0
 40
0
 40
0
 40
0
 40
1
 40
1
 40
1
 40
1
 10
94.509167
 20
190.178889
 30
0.0
 10
94.156389
 20
190.390556
 30
0.0
 10
93.662500
 20
190.143611
 30
0.0
 10
93.944722
 20
189.720278
 30
0.0
  0
LWPOLYLINE
  5
178
100
AcDbEntity
  8
0
 62
7
100
AcDbPolyline
 90
2
 70
0
 10
54.310280
 20
199.756947
 30
0.0
 10
54.310280
 20
199.756947
 30
0.0
  0
SPLINE
  5
179
100
AcDbEntity
  8
0
 62
7
100
AcDbSpline
 70
8
 71
3
 72
8
 73
4
 74
0
 40
0
 40
0
 40
0
 40
0
 40
1
 40
1
 40
1
 40
1
 10
95.003056
 20
188.309167
 30
0.0
 10
96.273056
 20
188.344444
 30
0.0
 10
98.319167
 20
188.732500
 30
0.0
 10
99.448056
 20
189.402778
 30
0.0
  0
SPLINE
  5
17a
100
AcDbEntity
  8
0
 62
7
100
AcDbSpline
 70
8
 71
3
 72
8
 73
4
 74
0
 40
0
 40
0
 40
0
 40
0
 40
1
 40
1
 40
1
 40
1
 10
99.448056
 20
189.402778
 30
0.0
 10
100.576944
 20
190.073056
 30
0.0
 10
102.834722
 20
191.942778
 30
0.0
 10
101.776389
 20
194.235833
 30
0.0
  0
SPLINE
  5
17b
100
AcDbEntity
  8
0
 62
7
100
AcDbSpline
 70
8
 71
3
 72
8
 73
4
 74
0
 40
0
 40
0
 40
0
 40
0
 40
1
 40
1
 40
1
 40
1
 10
101.776389
 20
194.235833
 30
0.0
 10
100.718056
 20
196.528889
 30
0.0
 10
98.530833
 20
195.823333
 30
0.0
 10
98.072222
 20
195.682222
 30
0.0
  0
SPLINE
  5
17c
100
AcDbEntity
  8
0
 62
7
100
AcDbSpline
 70
8
 71
3
 72
8
 73
4
 74
0
 40
0
 40
0
 40
0
 40
0
 40
1
 40
1
 40
1
 40
1
 10
98.072222
 20
195.682222
 30
0.0
 10
97.613611
 20
195.541111
 30
0.0
 10
93.944722
 20
194.341667
 30
0.0
 10
93.662500
 20
195.188333
 30
0.0
  0
SPLINE
  5
17d
100
AcDbEntity
  8
0
 62
7
100
AcDbSpline
 70
8
 71
3
 72
8
 73
4
 74
0
 40
0
 40
0
 40
0
 40
0
 40
1
 40
1
 40
1
 40
1
 10
93.662500
 20
195.188333
 30
0.0
 10
93.380278
 20
196.035000
 30
0.0
 10
94.368056
 20
196.987500
 30
0.0
 10
95.285278
 20
197.234444
 30
0.0
  0
SPLINE
  5
17e
100
AcDbEntity
  8
0
 62
7
100
AcDbSpline
 70
8
 71
3
 72
8
 73
4
 74
0
 40
0
 40
0
 40
0
 40
0
 40
1
 40
1
 40
1
 40
1
 10
95.285278
 20
197.234444
 30
0.0
 10
96.202500
 20
197.481389
 30
0.0
 10
97.825278
 20
197.516667
 30
0.0
 10
98.354444
 20
197.375556
 30
0.0
  0
SPLINE
  5
17f
100
AcDbEntity
  8
0
 62
7
100
AcDbSpline
 70
8
 71
3
 72
8
 73
4
 74
0
 40
0
 40
0
 40
0
 40
0
 40
1
 40
1
 40
1
 40
1
 10
98.354444
 20
197.375556
 30
0.0
 10
98.883611
 20
197.234444
 30
0.0
 10
99.095278
 20
197.587222
 30
0.0
 10
98.813056
 20
197.975278
 30
0.0
  0
LWPOLYLINE
  5
180
100
AcDbEntity
  8
0
 62
7
100
AcDbPolyline
 90
2
 70
0
 10
93.944722
 20
189.720278
 30
0.0
 10
95.003056
 20
188.309167
 30
0.0
  0
SPLINE
  5
181
100
AcDbEntity
  8
0
 62
7
100
AcDbSpline
 70
8
 71
3
 72
8
 73
4
 74
0
 40
0
 40
0
 40
0
 40
0
 40
1
 40
1
 40
1
 40
1
 10
84.137500
 20
214.379444
 30
0.0
 10
83.855278
 20
215.014444
 30
0.0
 10
83.079167
 20
216.284444
 30
0.0
 10
82.726389
 20
216.778333
 30
0.0
  0
SPLINE
  5
182
100
AcDbEntity
  8
0
 62
7
100
AcDbSpline
 70
8
 71
3
 72
8
 73
4
 74
0
 40
0
 40
0
 40
0
 40
0
 40
1
 40
1
 40
1
 40
1
 10
82.726389
 20
216.778333
 30
0.0
 10
82.373611
 20
217.272222
 30
0.0
 10
81.668056
 20
217.342778
 30
0.0
 10
81.456389
 20
217.060556
 30
0.0
  0
SPLINE
  5
183
100
AcDbEntity
  8
0
 62
7
100
AcDbSpline
 70
8
 71
3
 72
8
 73
4
 74
0
 40
0
 40
0
 40
0
 40
0
 40
1
 40
1
 40
1
 40
1
 10
81.456389
 20
217.060556
 30
0.0
 10
81.244722
 20
216.778333
 30
0.0
 10
80.962500
 20
216.425556
 30
0.0
 10
80.186389
 20
216.707778
 30
0.0
  0
SPLINE
  5
184
100
AcDbEntity
  8
0
 62
7
100
AcDbSpline
 70
8
 71
3
 72
8
 73
4
 74
0
 40
0
 40
0
 40
0
 40
0
 40
1
 40
1
 40
1
 40
1
 10
80.186389
 20
216.707778
 30
0.0
 10
79.410278
 20
216.990000
 30
0.0
 10
77.152500
 20
217.519167
 30
0.0
 10
74.436111
 20
217.519167
 30
0.0
  0
SPLINE
  5
185
100
AcDbEntity
  8
0
 62
7
100
AcDbSpline
 70
8
 71
3
 72
8
 73
4
 74
0
 40
0
 40
0
 40
0
 40
0
 40
1
 40
1
 40
1
 40
1
 10
74.436111
 20
217.519167
 30
0.0
 10
72.107778
 20
217.519167
 30
0.0
 10
64.346667
 20
215.473056
 30
0.0
 10
64.311389
 20
207.676667
 30
0.0
  0
SPLINE
  5
186
100
AcDbEntity
  8
0
 62
7
100
AcDbSpline
 70
8
 71
3
 72
8
 73
4
 74
0
 40
0
 40
0
 40
0
 40
0
 40
1
 40
1
 40
1
 40
1
 10
64.311389
 20
207.676667
 30
0.0
 10
64.273853
 20
199.351111
 30
0.0
 10
70.661389
 20
195.682222
 30
0.0
 10
76.588056
 20
195.964444
 30
0.0
  0
SPLINE
  5
187
100
AcDbEntity
  8
0
 62
7
100
AcDbSpline
 70
8
 71
3
 72
8
 73
4
 74
0
 40
0
 40
0
 40
0
 40
0
 40
1
 40
1
 40
1
 40
1
 10
76.588056
 20
195.964444
 30
0.0
 10
80.327500
 20
196.105556
 30
0.0
 10
83.431944
 20
197.587222
 30
0.0
 10
85.195833
 20
199.633333
 30
0.0
  0
SPLINE
  5
188
100
AcDbEntity
  8
0
 62
7
100
AcDbSpline
 70
8
 71
3
 72
8
 73
4
 74
0
 40
0
 40
0
 40
0
 40
0
 40
1
 40
1
 40
1
 40
1
 10
85.195833
 20
199.633333
 30
0.0
 10
85.901389
 20
200.409444
 30
0.0
 10
85.125278
 20
201.185556
 30
0.0
 10
84.208056
 20
200.409444
 30
0.0
  0
SPLINE
  5
189
100
AcDbEntity
  8
0
 62
7
100
AcDbSpline
 70
8
 71
3
 72
8
 73
4
 74
0
 40
0
 40
0
 40
0
 40
0
 40
1
 40
1
 40
1
 40
1
 10
84.208056
 20
200.409444
 30
0.0
 10
83.290833
 20
199.633333
 30
0.0
 10
80.680278
 20
197.657778
 30
0.0
 10
77.152500
 20
197.657778
 30
0.0
  0
SPLINE
  5
18a
100
AcDbEntity
  8
0
 62
7
100
AcDbSpline
 70
8
 71
3
 72
8
 73
4
 74
0
 40
0
 40
0
 40
0
 40
0
 40
1
 40
1
 40
1
 40
1
 10
77.152500
 20
197.657778
 30
0.0
 10
73.624722
 20
197.657778
 30
0.0
 10
67.133611
 20
198.716111
 30
0.0
 10
67.133611
 20
207.606111
 30
0.0
  0
SPLINE
  5
18b
100
AcDbEntity
  8
0
 62
7
100
AcDbSpline
 70
8
 71
3
 72
8
 73
4
 74
0
 40
0
 40
0
 40
0
 40
0
 40
1
 40
1
 40
1
 40
1
 10
67.133611
 20
207.606111
 30
0.0
 10
67.133611
 20
216.108056
 30
0.0
 10
74.541944
 20
216.143333
 30
0.0
 10
75.600278
 20
216.213889
 30
0.0
  0
SPLINE
  5
18c
100
AcDbEntity
  8
0
 62
7
100
AcDbSpline
 70
8
 71
3
 72
8
 73
4
 74
0
 40
0
 40
0
 40
0
 40
0
 40
1
 40
1
 40
1
 40
1
 10
75.600278
 20
216.213889
 30
0.0
 10
76.658611
 20
216.284444
 30
0.0
 10
80.503889
 20
215.825833
 30
0.0
 10
83.431944
 20
214.097222
 30
0.0
  0
SPLINE
  5
18d
100
AcDbEntity
  8
0
 62
7
100
AcDbSpline
 70
8
 71
3
 72
8
 73
4
 74
0
 40
0
 40
0
 40
0
 40
0
 40
1
 40
1
 40
1
 40
1
 10
83.431944
 20
214.097222
 30
0.0
 10
84.278611
 20
213.462222
 30
0.0
 10
84.278611
 20
214.167778
 30
0.0
 10
84.137500
 20
214.379444
 30
0.0
  0
SPLINE
  5
18e
100
AcDbEntity
  8
0
 62
7
100
AcDbSpline
 70
8
 71
3
 72
8
 73
4
 74
0
 40
0
 40
0
 40
0
 40
0
 40
1
 40
1
 40
1
 40
1
 10
84.137500
 20
214.379444
 30
0.0
 10
84.137500
 20
214.379444
 30
0.0
 10
84.278611
 20
214.167778
 30
0.0
 10
84.137500
 20
214.379444
 30
0.0
  0
LWPOLYLINE
  5
18f
100
AcDbEntity
  8
0
 62
7
100
AcDbPolyline
 90
2
 70
0
 10
98.813056
 20
197.975278
 30
0.0
 10
97.895833
 20
198.963056
 30
0.0
  0
SPLINE
  5
190
100
AcDbEntity
  8
0
 62
7
100
AcDbSpline
 70
8
 71
3
 72
8
 73
4
 74
0
 40
0
 40
0
 40
0
 40
0
 40
1
 40
1
 40
1
 40
1
 10
69.673611
 20
211.433891
 30
0.0
 10
69.885278
 20
211.751391
 30
0.0
 10
69.867780
 20
212.015833
 30
0.0
 10
69.797224
 20
212.121667
 30
0.0
  0
SPLINE
  5
191
100
AcDbEntity
  8
0
 62
7
100
AcDbSpline
 70
8
 71
3
 72
8
 73
4
 74
0
 40
0
 40
0
 40
0
 40
0
 40
1
 40
1
 40
1
 40
1
 10
69.797224
 20
212.121667
 30
0.0
 10
69.726669
 20
212.227500
 30
0.0
 10
69.550280
 20
212.280558
 30
0.0
 10
69.550280
 20
212.492224
 30
0.0
  0
SPLINE
  5
192
100
AcDbEntity
  8
0
 62
7
100
AcDbSpline
 70
8
 71
3
 72
8
 73
4
 74
0
 40
0
 40
0
 40
0
 40
0
 40
1
 40
1
 40
1
 40
1
 10
69.550280
 20
212.492224
 30
0.0
 10
69.550280
 20
212.668613
 30
0.0
 10
69.567778
 20
212.862500
 30
0.0
 10
70.026389
 20
212.862500
 30
0.0
  0
LWPOLYLINE
  5
193
100
AcDbEntity
  8
0
 62
7
100
AcDbPolyline
 90
2
 70
0
 10
84.137500
 20
214.379444
 30
0.0
 10
84.137500
 20
214.379444
 30
0.0
  0
SPLINE
  5
194
100
AcDbEntity
  8
0
 62
7
100
AcDbSpline
 70
8
 71
3
 72
8
 73
4
 74
0
 40
0
 40
0
 40
0
 40
0
 40
1
 40
1
 40
1
 40
1
 10
78.986944
 20
212.862500
 30
0.0
 10
80.503889
 20
212.862500
 30
0.0
 10
82.303056
 20
211.733611
 30
0.0
 10
82.303056
 20
210.005000
 30
0.0
  0
SPLINE
  5
195
100
AcDbEntity
  8
0
 62
7
100
AcDbSpline
 70
8
 71
3
 72
8
 73
4
 74
0
 40
0
 40
0
 40
0
 40
0
 40
1
 40
1
 40
1
 40
1
 10
82.303056
 20
210.005000
 30
0.0
 10
82.303056
 20
208.276389
 30
0.0
 10
80.962500
 20
207.747222
 30
0.0
 10
80.398056
 20
207.570833
 30
0.0
  0
SPLINE
  5
196
100
AcDbEntity
  8
0
 62
7
100
AcDbSpline
 70
8
 71
3
 72
8
 73
4
 74
0
 40
0
 40
0
 40
0
 40
0
 40
1
 40
1
 40
1
 40
1
 10
80.398056
 20
207.570833
 30
0.0
 10
81.456389
 20
207.076944
 30
0.0
 10
83.396667
 20
206.265556
 30
0.0
 10
83.431944
 20
203.655000
 30
0.0
  0
SPLINE
  5
197
100
AcDbEntity
  8
0
 62
7
100
AcDbSpline
 70
8
 71
3
 72
8
 73
4
 74
0
 40
0
 40
0
 40
0
 40
0
 40
1
 40
1
 40
1
 40
1
 10
83.431944
 20
203.655000
 30
0.0
 10
83.467222
 20
201.044444
 30
0.0
 10
81.244722
 20
199.880278
 30
0.0
 10
79.163333
 20
199.880278
 30
0.0
  0
LWPOLYLINE
  5
198
100
AcDbEntity
  8
0
 62
7
100
AcDbPolyline
 90
2
 70
0
 10
70.026389
 20
212.862500
 30
0.0
 10
78.986944
 20
212.862500
 30
0.0
  0
SPLINE
  5
199
100
AcDbEntity
  8
0
 62
7
100
AcDbSpline
 70
8
 71
3
 72
8
 73
4
 74
0
 40
0
 40
0
 40
0
 40
0
 40
1
 40
1
 40
1
 40
1
 10
72.742778
 20
199.880278
 30
0.0
 10
72.143056
 20
199.880278
 30
0.0
 10
72.178333
 20
200.621111
 30
0.0
 10
72.601667
 20
200.656389
 30
0.0
  0
SPLINE
  5
19a
100
AcDbEntity
  8
0
 62
7
100
AcDbSpline
 70
8
 71
3
 72
8
 73
4
 74
0
 40
0
 40
0
 40
0
 40
0
 40
1
 40
1
 40
1
 40
1
 10
72.601667
 20
200.656389
 30
0.0
 10
73.025000
 20
200.691667
 30
0.0
 10
73.518889
 20
200.868056
 30
0.0
 10
73.518889
 20
201.608889
 30
0.0
  0
LWPOLYLINE
  5
19b
100
AcDbEntity
  8
0
 62
7
100
AcDbPolyline
 90
2
 70
0
 10
79.163333
 20
199.880278
 30
0.0
 10
72.742778
 20
199.880278
 30
0.0
  0
SPLINE
  5
19c
100
AcDbEntity
  8
0
 62
7
100
AcDbSpline
 70
8
 71
3
 72
8
 73
4
 74
0
 40
0
 40
0
 40
0
 40
0
 40
1
 40
1
 40
1
 40
1
 10
73.518889
 20
210.992778
 30
0.0
 10
73.518889
 20
211.275000
 30
0.0
 10
73.518889
 20
211.804167
 30
0.0
 10
72.989722
 20
211.804167
 30
0.0
  0
LWPOLYLINE
  5
19d
100
AcDbEntity
  8
0
 62
7
100
AcDbPolyline
 90
2
 70
0
 10
73.518889
 20
201.608889
 30
0.0
 10
73.518889
 20
210.992778
 30
0.0
  0
SPLINE
  5
19e
100
AcDbEntity
  8
0
 62
7
100
AcDbSpline
 70
8
 71
3
 72
8
 73
4
 74
0
 40
0
 40
0
 40
0
 40
0
 40
1
 40
1
 40
1
 40
1
 10
64.752502
 20
201.538333
 30
0.0
 10
64.487778
 20
201.132780
 30
0.0
 10
64.747987
 20
200.820642
 30
0.0
 10
65.016944
 20
200.726944
 30
0.0
  0
SPLINE
  5
19f
100
AcDbEntity
  8
0
 62
7
100
AcDbSpline
 70
8
 71
3
 72
8
 73
4
 74
0
 40
0
 40
0
 40
0
 40
0
 40
1
 40
1
 40
1
 40
1
 10
65.016944
 20
200.726944
 30
0.0
 10
65.369722
 20
200.603613
 30
0.0
 10
65.463420
 20
199.880278
 30
0.0
 10
64.911111
 20
199.880278
 30
0.0
  0
LWPOLYLINE
  5
1a0
100
AcDbEntity
  8
0
 62
7
100
AcDbPolyline
 90
3
 70
0
 10
72.989722
 20
211.804167
 30
0.0
 10
71.472778
 20
211.804167
 30
0.0
 10
64.752502
 20
201.538333
 30
0.0
  0
SPLINE
  5
1a1
100
AcDbEntity
  8
0
 62
7
100
AcDbSpline
 70
8
 71
3
 72
8
 73
4
 74
0
 40
0
 40
0
 40
0
 40
0
 40
1
 40
1
 40
1
 40
1
 10
60.854167
 20
199.880278
 30
0.0
 10
60.289722
 20
199.915556
 30
0.0
 10
60.430833
 20
200.621111
 30
0.0
 10
60.960000
 20
200.621111
 30
0.0
  0
SPLINE
  5
1a2
100
AcDbEntity
  8
0
 62
7
100
AcDbSpline
 70
8
 71
3
 72
8
 73
4
 74
0
 40
0
 40
0
 40
0
 40
0
 40
1
 40
1
 40
1
 40
1
 10
60.960000
 20
200.621111
 30
0.0
 10
61.489167
 20
200.621111
 30
0.0
 10
62.653333
 20
200.656389
 30
0.0
 10
63.500000
 20
201.996944
 30
0.0
  0
LWPOLYLINE
  5
1a3
100
AcDbEntity
  8
0
 62
7
100
AcDbPolyline
 90
2
 70
0
 10
64.911111
 20
199.880278
 30
0.0
 10
60.854167
 20
199.880278
 30
0.0
  0
LWPOLYLINE
  5
1a4
100
AcDbEntity
  8
0
 62
7
100
AcDbPolyline
 90
3
 70
0
 10
63.500000
 20
201.996944
 30
0.0
 10
69.673611
 20
211.433891
 30
0.0
 10
69.673611
 20
211.433891
 30
0.0
  0
LWPOLYLINE
  5
1a5
100
AcDbEntity
  8
0
 62
7
100
AcDbPolyline
 90
5
 70
0
 10
67.839167
 20
208.170556
 30
0.0
 10
74.541944
 20
208.170556
 30
0.0
 10
74.541944
 20
206.971111
 30
0.0
 10
67.839167
 20
206.971111
 30
0.0
 10
67.839167
 20
208.170556
 30
0.0
  0
SPLINE
  5
1a6
100
AcDbEntity
  8
0
 62
7
100
AcDbSpline
 70
8
 71
3
 72
8
 73
4
 74
0
 40
0
 40
0
 40
0
 40
0
 40
1
 40
1
 40
1
 40
1
 10
77.293611
 20
206.971111
 30
0.0
 10
78.387222
 20
206.971111
 30
0.0
 10
80.997778
 20
206.477222
 30
0.0
 10
80.997778
 20
203.866667
 30
0.0
  0
SPLINE
  5
1a7
100
AcDbEntity
  8
0
 62
7
100
AcDbSpline
 70
8
 71
3
 72
8
 73
4
 74
0
 40
0
 40
0
 40
0
 40
0
 40
1
 40
1
 40
1
 40
1
 10
80.997778
 20
203.866667
 30
0.0
 10
80.997778
 20
201.256111
 30
0.0
 10
78.422500
 20
200.726944
 30
0.0
 10
77.434722
 20
200.762222
 30
0.0
  0
SPLINE
  5
1a8
100
AcDbEntity
  8
0
 62
7
100
AcDbSpline
 70
8
 71
3
 72
8
 73
4
 74
0
 40
0
 40
0
 40
0
 40
0
 40
1
 40
1
 40
1
 40
1
 10
77.434722
 20
200.762222
 30
0.0
 10
76.446944
 20
200.797500
 30
0.0
 10
75.600278
 20
200.832778
 30
0.0
 10
75.600278
 20
201.785278
 30
0.0
  0
LWPOLYLINE
  5
1a9
100
AcDbEntity
  8
0
 62
7
100
AcDbPolyline
 90
2
 70
0
 10
75.600278
 20
206.971111
 30
0.0
 10
77.293611
 20
206.971111
 30
0.0
  0
SPLINE
  5
1aa
100
AcDbEntity
  8
0
 62
7
100
AcDbSpline
 70
8
 71
3
 72
8
 73
4
 74
0
 40
0
 40
0
 40
0
 40
0
 40
1
 40
1
 40
1
 40
1
 10
78.193336
 20
208.166040
 30
0.0
 10
79.198611
 20
208.166040
 30
0.0
 10
80.014516
 20
208.981944
 30
0.0
 10
80.014516
 20
209.987502
 30
0.0
  0
SPLINE
  5
1ab
100
AcDbEntity
  8
0
 62
7
100
AcDbSpline
 70
8
 71
3
 72
8
 73
4
 74
0
 40
0
 40
0
 40
0
 40
0
 40
1
 40
1
 40
1
 40
1
 10
80.014516
 20
209.987502
 30
0.0
 10
80.014516
 20
210.992778
 30
0.0
 10
79.198611
 20
211.808682
 30
0.0
 10
78.193336
 20
211.808682
 30
0.0
  0
LWPOLYLINE
  5
1ac
100
AcDbEntity
  8
0
 62
7
100
AcDbPolyline
 90
3
 70
0
 10
75.600278
 20
201.785278
 30
0.0
 10
75.600278
 20
206.971111
 30
0.0
 10
75.600278
 20
206.971111
 30
0.0
  0
SPLINE
  5
1ad
100
AcDbEntity
  8
0
 62
7
100
AcDbSpline
 70
8
 71
3
 72
8
 73
4
 74
0
 40
0
 40
0
 40
0
 40
0
 40
1
 40
1
 40
1
 40
1
 10
78.886756
 20
209.784584
 30
0.0
 10
78.759756
 20
210.069911
 30
0.0
 10
78.410364
 20
210.642258
 30
0.0
 10
78.251756
 20
210.863802
 30
0.0
  0
SPLINE
  5
1ae
100
AcDbEntity
  8
0
 62
7
100
AcDbSpline
 70
8
 71
3
 72
8
 73
4
 74
0
 40
0
 40
0
 40
0
 40
0
 40
1
 40
1
 40
1
 40
1
 10
78.251756
 20
210.863802
 30
0.0
 10
78.092864
 20
211.086476
 30
0.0
 10
77.669531
 20
211.012533
 30
0.0
 10
77.573576
 20
210.884687
 30
0.0
  0
SPLINE
  5
1af
100
AcDbEntity
  8
0
 62
7
100
AcDbSpline
 70
8
 71
3
 72
8
 73
4
 74
0
 40
0
 40
0
 40
0
 40
0
 40
1
 40
1
 40
1
 40
1
 10
77.573576
 20
210.884687
 30
0.0
 10
77.478749
 20
210.757969
 30
0.0
 10
77.152500
 20
210.745833
 30
0.0
 10
76.861529
 20
210.796633
 30
0.0
  0
SPLINE
  5
1b0
100
AcDbEntity
  8
0
 62
7
100
AcDbSpline
 70
8
 71
3
 72
8
 73
4
 74
0
 40
0
 40
0
 40
0
 40
0
 40
1
 40
1
 40
1
 40
1
 10
76.861529
 20
210.796633
 30
0.0
 10
76.495487
 20
210.861544
 30
0.0
 10
75.743647
 20
211.092120
 30
0.0
 10
74.521060
 20
211.092120
 30
0.0
  0
SPLINE
  5
1b1
100
AcDbEntity
  8
0
 62
7
100
AcDbSpline
 70
8
 71
3
 72
8
 73
4
 74
0
 40
0
 40
0
 40
0
 40
0
 40
1
 40
1
 40
1
 40
1
 10
74.521060
 20
211.092120
 30
0.0
 10
73.472604
 20
211.092120
 30
0.0
 10
69.973613
 20
210.170382
 30
0.0
 10
69.964582
 20
206.662360
 30
0.0
  0
SPLINE
  5
1b2
100
AcDbEntity
  8
0
 62
7
100
AcDbSpline
 70
8
 71
3
 72
8
 73
4
 74
0
 40
0
 40
0
 40
0
 40
0
 40
1
 40
1
 40
1
 40
1
 10
69.964582
 20
206.662360
 30
0.0
 10
69.955833
 20
203.231667
 30
0.0
 10
72.610416
 20
201.511804
 30
0.0
 10
75.277133
 20
201.638522
 30
0.0
  0
SPLINE
  5
1b3
100
AcDbEntity
  8
0
 62
7
100
AcDbSpline
 70
8
 71
3
 72
8
 73
4
 74
0
 40
0
 40
0
 40
0
 40
0
 40
1
 40
1
 40
1
 40
1
 10
75.277133
 20
201.638522
 30
0.0
 10
76.960589
 20
201.702587
 30
0.0
 10
78.881111
 20
202.737778
 30
0.0
 10
79.503976
 20
203.819253
 30
0.0
  0
SPLINE
  5
1b4
100
AcDbEntity
  8
0
 62
7
100
AcDbSpline
 70
8
 71
3
 72
8
 73
4
 74
0
 40
0
 40
0
 40
0
 40
0
 40
1
 40
1
 40
1
 40
1
 10
79.503976
 20
203.819253
 30
0.0
 10
79.821476
 20
204.168644
 30
0.0
 10
79.542640
 20
204.623022
 30
0.0
 10
79.130313
 20
204.274478
 30
0.0
  0
SPLINE
  5
1b5
100
AcDbEntity
  8
0
 62
7
100
AcDbSpline
 70
8
 71
3
 72
8
 73
4
 74
0
 40
0
 40
0
 40
0
 40
0
 40
1
 40
1
 40
1
 40
1
 10
79.130313
 20
204.274478
 30
0.0
 10
78.716858
 20
203.925087
 30
0.0
 10
77.575833
 20
202.773056
 30
0.0
 10
74.826424
 20
202.929689
 30
0.0
  0
SPLINE
  5
1b6
100
AcDbEntity
  8
0
 62
7
100
AcDbSpline
 70
8
 71
3
 72
8
 73
4
 74
0
 40
0
 40
0
 40
0
 40
0
 40
1
 40
1
 40
1
 40
1
 10
74.826424
 20
202.929689
 30
0.0
 10
74.260851
 20
202.962709
 30
0.0
 10
71.508056
 20
203.549167
 30
0.0
 10
71.481527
 20
206.595191
 30
0.0
  0
SPLINE
  5
1b7
100
AcDbEntity
  8
0
 62
7
100
AcDbSpline
 70
8
 71
3
 72
8
 73
4
 74
0
 40
0
 40
0
 40
0
 40
0
 40
1
 40
1
 40
1
 40
1
 10
71.481527
 20
206.595191
 30
0.0
 10
71.448507
 20
210.420713
 30
0.0
 10
74.568473
 20
210.472360
 30
0.0
 10
75.044582
 20
210.504533
 30
0.0
  0
SPLINE
  5
1b8
100
AcDbEntity
  8
0
 62
7
100
AcDbSpline
 70
8
 71
3
 72
8
 73
4
 74
0
 40
0
 40
0
 40
0
 40
0
 40
1
 40
1
 40
1
 40
1
 10
75.044582
 20
210.504533
 30
0.0
 10
75.520973
 20
210.536424
 30
0.0
 10
77.251842
 20
210.328991
 30
0.0
 10
78.569256
 20
209.552033
 30
0.0
  0
SPLINE
  5
1b9
100
AcDbEntity
  8
0
 62
7
100
AcDbSpline
 70
8
 71
3
 72
8
 73
4
 74
0
 40
0
 40
0
 40
0
 40
0
 40
1
 40
1
 40
1
 40
1
 10
78.569256
 20
209.552033
 30
0.0
 10
78.949409
 20
209.266424
 30
0.0
 10
78.949409
 20
209.689758
 30
0.0
 10
78.886756
 20
209.784584
 30
0.0
  0
SPLINE
  5
1ba
100
AcDbEntity
  8
0
 62
7
100
AcDbSpline
 70
8
 71
3
 72
8
 73
4
 74
0
 40
0
 40
0
 40
0
 40
0
 40
1
 40
1
 40
1
 40
1
 10
78.886756
 20
209.784584
 30
0.0
 10
78.886756
 20
209.784584
 30
0.0
 10
78.949409
 20
209.689758
 30
0.0
 10
78.886756
 20
209.784584
 30
0.0
  0
LWPOLYLINE
  5
1bb
100
AcDbEntity
  8
0
 62
7
100
AcDbPolyline
 90
5
 70
0
 10
78.193336
 20
211.808682
 30
0.0
 10
75.600278
 20
211.808682
 30
0.0
 10
75.600278
 20
208.170556
 30
0.0
 10
78.193336
 20
208.166040
 30
0.0
 10
78.193336
 20
208.166040
 30
0.0
  0
LWPOLYLINE
  5
1bc
100
AcDbEntity
  8
0
 62
7
100
AcDbPolyline
 90
2
 70
0
 10
78.886756
 20
209.784584
 30
0.0
 10
78.886756
 20
209.784584
 30
0.0
  0
ENDSEC
  0
SECTION
  2
OBJECTS
  0
DICTIONARY
  5
C
330
0
100
AcDbDictionary
  3
ACAD_GROUP
350
D
  3
ACAD_MLINESTYLE
350
17
  0
DICTIONARY
  5
D
330
C
100
AcDbDictionary
  0
DICTIONARY
  5
1A
330
C
100
AcDbDictionary
  0
DICTIONARY
  5
17
330
C
100
AcDbDictionary
  3
STANDARD
350
18
  0
DICTIONARY
  5
19
330
C
100
AcDbDictionary
  0
ENDSEC
  0
EOF
